Páginas órfãs

Ir para: navegação, pesquisa

As seguintes páginas não recebem links nem são incluídas em outras páginas do GEATI - Grupo de Estudos Avançados em TI.

Apresenta-se abaixo até 20 resultados no intervalo #1 a #20.

Ver (20 anteriores | próximos 20) (20 | 50 | 100 | 250 | 500).

  1. --0-4----c
  2. -----0-4--d
  3. -----0-4----d
  4. -----0-4--e
  5. -----0-4----g
  6. ------0-4--o
  7. -----0-4--o
  8. -----0-4----r
  9. --0-4----r
  10. -----0-4----u
  11. -----0-4----w
  12. -----0-4----x
  13. -----0-4--z
  14. 05---s
  15. 05---w
  16. -06-e
  17. -06-y
  18. 1000pip Builder Body of the best Forex Signals Reviewed1772546
  19. 1000pip Builder Body of the best Forex Signals Reviewed2006775
  20. 1000pip Builder Body of the best Forex Signals Reviewed202563

Ver (20 anteriores | próximos 20) (20 | 50 | 100 | 250 | 500).