Páginas órfãs

Ir para: navegação, pesquisa

As seguintes páginas não recebem links nem são incluídas em outras páginas do GEATI - Grupo de Estudos Avançados em TI.

Apresenta-se abaixo até 50 resultados no intervalo #1 a #50.

Ver (50 anteriores | próximos 50) (20 | 50 | 100 | 250 | 500).

  1. 00000039-----70--00000039-m
  2. 0001-Uamki-Matematyka-Szkolna-d
  3. 0001-Uamki-Matematyka-Szkolna-q
  4. 0001-Uamki-Matematyka-Szkolna-z
  5. 000-Personal-Loans-for-People-With-Bad-Credit-Can-Exist-f
  6. 001SPINTAXIsaninflatablepaddleboardtheright-a
  7. 002SPINTAXWhoarethetopminecraftserversthis-d
  8. 004SPINTAXIntroductiontostanduppaddleboardingwheredidstandup-n
  9. 01132069999-Leeds-v
  10. 01132069999-Leeds-z
  11. 011-Pitka-Szanghajska--Mojepiatkicom-i
  12. 011-Pitka-Szanghajska--Mojepiatkicom-l
  13. 011-Pitka-Szanghajska--Mojepiatkicom-z
  14. 01248-339668-that-called-me-i
  15. 012-MercedesBenz-500-SEC-AMG-1985--Ardor-Auctions-u
  16. --01-BJ--------h
  17. 02070431874-questionable-number-s
  18. -02--------r
  19. 0405-acura-tsx-oem-aspec-front-and-rear-lip-t
  20. 040620r-Temat-Tabata-Co-To-Jest-c
  21. 040620r-Temat-Tabata-Co-To-Stanowi-w
  22. 040V-Adjustable-Energy-Provide-Circuit--Construction-Tutorial-z
  23. ---0-4--a
  24. --0-4--a
  25. --0-4--b
  26. --0-4----c
  27. -----0-4--d
  28. -----0-4----d
  29. -----0-4--e
  30. ------0-4--g
  31. -----0-4----g
  32. ------0-4--i
  33. -----0-4--j
  34. -----0-4-n
  35. ------0-4--o
  36. -----0-4--o
  37. -----0-4----q
  38. -----0-4----r
  39. --0-4----r
  40. -----0-4----u
  41. -----0-4----w
  42. ---0-4-w
  43. 04-Ways-To-End-Your-Struggle-To-Get-Your-Business-On-Instagram--Social-Networking-m
  44. -----0-4--x
  45. -----0-4----x
  46. 04XI2020-R-Ukochana-Moja-j
  47. -----0-4--z
  48. --0-4--z
  49. 05-06-------c
  50. 05-06-------k

Ver (50 anteriores | próximos 50) (20 | 50 | 100 | 250 | 500).